Creep – Radiohead: Acordes, tablatura y letra fácil para guitarra

Creep – Radiohead: Acordes, tablatura y letra fácil para guitarra
Comparte este artículo en

Creep – Radiohead: tablatura, acordes y letra para que la toques fácil en guitarra y también practiques arpegios con este clásico del Rock.

Creep: Acordes de guitarra

Primero te mostramos los acordes sólos, para que aprendas la secuencia de acordes. Una vez que los domines, puedes pasar a la siguiente parte con los arpegios.

Introducción

   G   B   C   Cm

Estrofa I

 
When you were here bef
G 
ore
 
Couldn’t look you in the e
B 
ye
 
You’re just like an a
C 
ngel
 
Your skin makes me cr
Cm 
y

Estrofa II

 
You float like a fe
G 
ather
 
In a beautiful w
B 
orld
 
I wish I was sp
C 
ecial
 
You’re so fucking sp
Cm 
ecial

Estribillo

 
But I’m a cre
G 
ep
 
I’m a we
B 
irdo
 
What the hell am I doing h
C 
ere?
 
I don’t bel
Cm 
ong 
 
here

Estrofa III

 
I don’t care if it h
G 
urts
 
I wanna have contr
B 
ol
 
I wanna a perfect b
C 
ody
 
I wanna a perfect so
Cm 
ul

Estrofa IV

 
I want you to n
G 
otice
 
When I’m not ar
B 
ound
 
You’re so fucking sp
C 
ecial
 
I wish I was sp
Cm 
ecial

Estribillo

 
But I’m a cre
G 
ep
 
I’m a we
B 
irdo
 
What the hell am I doing h
C 
ere?
 
I don’t bel
Cm 
ong 
 
here

Puente

 
Sh
G 
e’s running out the door  
B 
 
Sh
C 
e’s running out
 
She r
Cm 
un, run, run, run  
G 
 
B 
 
R
C 
un  
Cm 

Estrofa V

 
Whatever makes you h
G 
appy
 
Whatever you w
B 
ant
 
So fucking sp
C 
ecial
 
I wish I was sp
Cm 
ecial

Estribillo

 
But I’m a cre
G 
ep
 
I’m a we
B 
irdo
 
What the hell am I doing h
C 
ere?
 
I don’t bel
Cm 
ong 
 
here
 
I don’t bel
G 
ong 
 
here

Creep: Acordes, tablaturas y arpegios para guitarra

Ideal para que practiques arpegios.

Si estás utilizando tu smartphone o teléfono móvil, colócalo en posición horizontal para visualizar las tabs completas.

Introducción:

   G
E|------------------------------------------|
B|---------------3----------3---------------|
G|-----4----4------4---4------4-------------|
D|---5---5-----5-----5----------------------|
A|------------------------------------------|
E|-3----------------------3-----------------|

   B
E|------------------------------------------|
B|------------------------------------------|
G|-----8-----8-----9-----8----8-------------|
D|---9---9------9----9------9---9-----------|
A|------------------------------------------|
E|-7-------7-----------7--------------------|

   C
E|------------------------------------------|
B|------------------------------------------|
G|------9------9------10------9-----9-------|
D|---10---10------10-----10------10---10----|
A|------------------------------------------|
E|-8---------8--------------8---------------|

   Cm
E|------------------------------------------|
B|------------------------------------------|
G|---8------8-----------8-------8-----------|
D|-----10-----10---10-----10------10--------|
A|-----------------------------------10-----|
E|-8------8------8----8------8--------------|

Estrofa I

  When you were here before
   G
E|------------------------------------------|
B|------------------------------------------|
G|----------------4--------4----------------|
D|-----5----5-------5---5----5--------------|
A|---5---5-----5------5---------------------|
E|-3----------------------------------------|

Couldn't look you in the eye
   B
E|------------------------------------------|
B|------------------------------------------|
G|----------------8-----------8-------------|
D|-----9----9-------9---9-------9-----------|
A|---9---9-----9------9-----9---------------|
E|-7----------------------7-----------------|

You're just like an angel
   C
E|------------------------------------------|
B|------------------------------------------|
G|---------------9-------9--------------9---|
D|------10----10---10------10----10-------10|
A|---10----10---------10------10-----10-----|
E|-8----------------------------------------|

Your skin makes me cry
   Cm
E|------------------------------------------|
B|------------------------------------------|
G|------------8----------8-----------8------|
D|------10------10----10---10----10----10---|
A|---10----10------10---------10----------10|
E|-8----------------------------------------|

Estrofa II

You float like a feather
  G
E|----------------3--------3----------------|
B|----------------3--------3----------------|
G|-----4----4-------4---4----4--------------|
D|---5---5-----5------5---------------------|
A|------------------------------------------|
E|-3----------------------------------------|

In a beautiful world
   B
E|-----------------7----------7-------------|
B|-----------7---7---7---7------7-----------|
G|-----8---8---8-------8--------------------|
D|---9---9------------------9---------------|
A|------------------------------------------|
E|-7----------------------------------------|

I wish I was special
   C
E|------------------8---------8-------------|
B|-------------8----8-----------8-----------|
G|------9----9----9---9----9------9---------|
D|---10---10------------10------------------|
A|------------------------------------------|
E|-8----------------------------------------|

You're so fucking special
   Cm
E|------------------------------------------|
B|------------8------8---------8------------|
G|------8-------8------8----8----8----------|
D|---10---10------10-----10--------10-------|
A|------------------------------------------|
E|-8----------------------------------------|

Estribillo

 
But I’m a cre
G 
ep
 
I’m a we
B 
irdo
 
What the hell am I doing h
C 
ere?
 
I don’t bel
Cm 
ong 
 
here

Arreglo entre Estribillo y Estrofa III

E|------------------------------------------|
B|------------------------------------------|
G|-4----8----5...--7...--8...--10~~/12------|
D|-5----9-----------------------------------|
A|-5----9----3...--5...--6...---8~~/10------|
E|-3----7-----------------------------------|

Estrofa III

 I don't care if it hurts
   G
E|------------------------------------------|
B|------------------------------------------|
G|----------------4--------4----------------|
D|-----5----5-------5---5----5--------------|
A|---5---5-----5------5---------------------|
E|-3----------------------------------------|

I wanna have control
   B
E|------------------------------------------|
B|------------------------------------------|
G|----------------8-----------8-------------|
D|-----9----9-------9---9-------9-----------|
A|---9---9-----9------9-----9---------------|
E|-7----------------------7-----------------|

I wanna a perfect body
   C
E|------------------------------------------|
B|------------------------------------------|
G|---------------9-------9--------------9---|
D|------10----10---10------10----10-------10|
A|---10----10---------10------10-----10-----|
E|-8----------------------------------------|

I wanna a perfect soul
   Cm
E|------------------------------------------|
B|------------------------------------------|
G|------------8----------8-----------8------|
D|------10------10----10---10----10----10---|
A|---10----10------10---------10----------10|
E|-8----------------------------------------|

Estrofa IV

I want you to notice
  G
E|----------------3--------3----------------|
B|----------------3--------3----------------|
G|-----4----4-------4---4----4--------------|
D|---5---5-----5------5---------------------|
A|------------------------------------------|
E|-3----------------------------------------|

When I'm not around
   B
E|-----------------7----------7-------------|
B|-----------7---7---7---7------7-----------|
G|-----8---8---8-------8--------------------|
D|---9---9------------------9---------------|
A|------------------------------------------|
E|-7----------------------------------------|

You're so fucking special
   C
E|------------------8---------8-------------|
B|-------------8----8-----------8-----------|
G|------9----9----9---9----9------9---------|
D|---10---10------------10------------------|
A|------------------------------------------|
E|-8----------------------------------------|

I wish I was special
   Cm
E|------------------------------------------|
B|------------8------8---------8------------|
G|------8-------8------8----8----8----------|
D|---10---10------10-----10--------10-------|
A|------------------------------------------|
E|-8----------------------------------------|

Estribillo

 
But I’m a cre
G 
ep
 
I’m a we
B 
irdo
 
What the hell am I doing h
C 
ere?
 
I don’t bel
Cm 
ong 
 
here

Solo de guitarra

She's running out the door
E|------------------------------------------|
B|------------------------------------------|
G|-12...-8...-11...-9...-12...-8...-17...---|
D|------------------------------------------|
A|-10...-6...-9-...-7...-10...-6...-15...---|
E|------------------------------------------|

She's running out
E|------------------------------------------|
B|------------------------------------------|
G|-16...12...11...14...12...9...8~~\5~~\4---|
D|------------------------------------------|
A|-14...10...9-...12...10...7...6~~\3~~\2---|
E|------------------------------------------|

She run, run, run, run

Run

Estrofa V

 Whatever makes you happy
   G
E|------------------------------------------|
B|------------------------------------------|
G|----------------4--------4----------------|
D|-----5----5-------5---5----5--------------|
A|---5---5-----5------5---------------------|
E|-3----------------------------------------|

Whatever you want
   B
E|------------------------------------------|
B|------------------------------------------|
G|----------------8-----------8-------------|
D|-----9----9-------9---9-------9-----------|
A|---9---9-----9------9-----9---------------|
E|-7----------------------7-----------------|

So fucking special
   C
E|------------------------------------------|
B|------------------------------------------|
G|---------------9-------9--------------9---|
D|------10----10---10------10----10-------10|
A|---10----10---------10------10-----10-----|
E|-8----------------------------------------|

I wish I was special
   Cm
E|------------------------------------------|
B|------------------------------------------|
G|------------8----------8-----------8------|
D|------10------10----10---10----10----10---|
A|---10----10------10---------10----------10|
E|-8----------------------------------------|

Estribillo

But I'm a creep
   G
E|----------------3--------3----------------|
B|------------------3------3----------------|
G|-----4----4-4-------4------4--------------|
D|---5---5------5-------5------5------------|
A|------------------------------------------|
E|-3----------------------------------------|

I'm a weirdo
   B
E|----------------7-------------------------|
B|-----------7----7-------------------------|
G|-----8---8----8---8---8----8--------------|
D|---9---9------------9--------9------------|
A|------------------------------------------|
E|-7-----------------------7----------------|

What the hell am I doing here?
   C
E|------------------8-----------------------|
B|-----8------------8-8---8-----8-----------|
G|---9---8----9---------9---------9---------|
D|---------10----10----------10-------------|
A|------------------------------------------|
E|-8----------------------------------------|

I don't belong here
   Cm
E|------------------------------------------|
B|------------------------------------------|
G|-8----------------------------------------|
D|-10---------------------------------------|
A|-10---------------------------------------|
E|-8----------------------------------------|

                 G
I don't belong here

Video oficial de Creep de Radiohead

Historia de Creep de Radiohead

Creep es el single más conocido del grupo británico de rock alternativo Radiohead. Fue lanzado en 1992 como su sencillo debut. También está publicado en el álbum Pablo Honey de la banda del año 1993.

Inicialmente no tuvo mucha difusión puesto que fue considerada demasiado depresiva. A pesar de eso, fue escalando en el ranking UK Singles Chart en Inglaterra y en el Hot Modern Rock Tracks de Billboard en los Estados Unidos, logrando el puesto 7 y 2 respectivamente.

El rechazo de la propia banda a la canción

La letra fue considerada demasiado “comercial”, por ser “intencionalmente posser”, “muy de pose”. Además, sumado al enorme éxito que el tema cosechó, hizo que la misma banda llegara recharzla. Así, la canción que los catapultó mundialmente dejó de formar parte del repertorio habitual de la banda.

Creep no volvió a ser tocada en vivo hasta recién en el 2001. Pero incluso así, sólo es interpretada esporádicamente en conciertos.

Creep de Radiohead en vivo

Creep y la denuncia de plagio

Radiohead fue demandado por plagio por Albert Hammond y Mike Hazlewood de The Hollies. El gran parecido de Creep a The Air That I Breathe fue tan evidente que la banda perdió el juicio. La banda tuvo que incluir a Albert Hammond y Mike Hazlewood en los créditos del tema como coautores.

Abajo te dejamos el video de The Air That I breathe de The Hollies. ¿Te parece que es un plagio?


Puedes compartir opiniones o charlar sobre esto y más con otros músicos en nuestro foro: https://guitarriego.com/foro/

También síguenos en Instagram @guitarriego o Facebook: https://m.facebook.com/guitarriego/


Comparte este artículo en

Deja un comentario

Tu dirección de correo electrónico no será publicada. Los campos obligatorios están marcados con *